Sad Reminders

An Unofficial Mark Kozelek Site

You are not logged in.

Announcement

This forum is now READ ONLY. The new forum is here. Read why we have a new forum here.

#1 06-08-2010 7:11am

MathEquation
Member
From: England
Registered: 03-02-2010
Posts: 60

Moorestown live version tab

Hello, I've tabbed out the live version for Moorestown if anyone is wanting to learn it. I don't know what the note for the bottom string is called so if anyone knows what note it is i'd appreciated it? I've tried to describe how to tune it the best I can. I've put a version up on youtube a while back but I put the capo too far down that it sounded too deep.

http://www.youtube.com/watch?v=wLmxEqfB9Uc

Sun Kil Moon - Moorestown (Live Version Tab)

DADF#A Then the bottom string tuned to the forth fret of the string above

(Capo 3rd Fret)

Intro/Verse:

  |-------0------------0-----------0---------0-----------0---------0-----------0-----
 A|-----------0------------0-----------0---------0-----------0---------0-----------0-
F#|---0------------3-----------3-----------------------------------------------------
 D|-----0------------2-----------0---------2-------2h4-----------2-------2h4---------
 A|-2-------2----0-------0-----------------------------------------------------------
 D|--------------------------5-------5---0-----0-------0---0---0-----0-------0---0---

On the first time you hit the 5th fret note on the top string, it sounds good to slide to it and he plays it like that sometimes.

He doesn't always hammer on on the last part but that's the way I play it, you could also just play this or switch between the two by adding a hammer on at the end.

  |-----0-----------0---------0-----------0-----
 A|---------0-----------0---------0-----------0-
F#|-------------0-------------------------------
 D|---2-----------2---------2-------2h4---------
 A|---------------------------------------------
 D|-0-----0---0-------0---0-----0-------0---0---

Then for the "Her walls were Mediterranean blue" part

  |-------------------------------0---------0-----------0-----
 A|-------4-----------4---------------0---------0-----------0-
F#|---3-------3---3-------3---0------------------------------- 
 D|-----2-----------2-----------0---------2-------2h4---------
 A|-4-------4---4-------4---2-------2-------------------------
 D|-------------------------------------0-----0-------0---0---

  |-------0------------0-----------0---------0-----------0-----
 A|-----------0------------0-----------0---------0-----------0-
F#|---0------------3-----------3-------------------------------
 D|-----0------------2-----------0---------2-------2h4---------
 A|-2-------2----0-------0-------------------------------------
 D|--------------------------5-------5---0-----0-------0---0---

  |-------------------------------0---------0-----------0-----
 A|-------4-----------4---------------0---------0-----------0-
F#|---3-------3---3-------3---0------------------------------- 
 D|-----2-----------2-----------0---------2-------2h4---------
 A|-4-------4---4-------4---2-------2-------------------------
 D|-------------------------------------0-----0-------0---0---

  |-------0------------0-----------0---------0-----------0---------0-----------0-----
 A|-----------0------------0-----------0---------0-----------0---------0-----------0-
F#|---0------------3-----------3-----------------------------------------------------
 D|-----0------------2-----------0---------2-------2h4-----------2-------2h4---------
 A|-2-------2----0-------0-----------------------------------------------------------
 D|--------------------------5-------5---0-----0-------0---0---0-----0-------0---0---

Then that's it for the whole song.

"Sometimes I pick it up and play. Loosen and stretch it's ancient strings, until it sounds the way I feel."

Offline

#2 06-09-2010 10:47pm

BadSeed
Member
From: Scotland
Registered: 03-18-2007
Posts: 338

Re: Moorestown live version tab

4th fret on an A string not a C# ?  yikes

Last edited by BadSeed (06-09-2010 10:48pm)

Offline

Board footer

Powered by FluxBB