Sad Reminders

An Unofficial Mark Kozelek Site

You are not logged in.

Announcement

This forum is now READ ONLY. The new forum is here. Read why we have a new forum here.

#1 07-15-2010 11:03am

MathEquation
Member
From: England
Registered: 03-02-2010
Posts: 60

I'll Be There - Tab

Hello, I've just tabbed out "I'll be there" in case other people are wanting to learn it as well, so I thought I'd share it with you guys here. I've worked it out as best I can, just it sounds like there's a few extra notes Mark might play in the chorus parts on the D and G strings, but you can get away with playing them open and it still sounds really nice either way. Anyway here's my version on Youtube if you want to hear how it sounds. I'm going to start working on others from the album soon, just as everyone else knows, a lot are going to prove quite tricky and they'll be nightmare to tab.

http://www.youtube.com/watch?v=kP9A8_umYzs

Sun Kil Moon - I'll Be There

DADGAD (Capo 3th Fret)

Verse:

D|---0-----0-----0-----0-----0-----0-----0-----0---
A|-----5-----5-----5-----5-----5-----5-----5-----5-
G|-------------------0-----------------------0-----
D|-------------4-----------4-----------4-----------
A|-------0-----------------------0-----------------
D|-0-----------------------------------------------




D|---0-----0-----0-----0-----0-----0-----0-----0---
A|-----5-----5-----5-----5-----5-----5-----5-----5-
G|-------------2-----------------------0-----------
D|-------2-----------2-----------2-----------0-----
A|-0-----------------------0-----------------------
D|-------------------------------------------------




D|---0-----0-----0-----0-----0-----0-----0-----0---
A|-----5-----5-----5-----5-----5-----5-----5-----5-
G|-------------0-----------------------0-----------
D|-------4-----------4-----------4-----------4-----
A|-2-----------------------2-----------------------
D|-------------------------------------------------




D|---0-----0-----0-----0-----0-----0-----0-----0---
A|-----0-----0-----0-----0-----0-----0-----0-----0-
G|-------------6-----------------------2-----------
D|-------0-----------0-----------0-----------0-----
A|-------------------------------------------------
D|-4-----------------------4-----------------------




D|---5-----5-----5-----5-----5-----5-----5-----5---
A|-----0-----0-----0-----0-----0-----0-----0-----0-
G|-------------4-----------------------4-----------
D|-------0-----------0-----------0-----------0-----
A|-------------------------------------------------
D|-5-----------------------5-----------------------




D|---0-----0-----0-----0-----0-----0-----0-----0---
A|-----0-----0-----0-----0-----0-----0-----0-----0-
G|-------------------0-----------------0-----------
D|-------------4-----------------2-----------2-----
A|-------0-----------------0-----------------------
D|-0-----------------------------------------------


Then just repeat this for all the verses.


Chorus:

D|---0-----0-----0-----0-----0-----0-----0-----0---
A|-----0-----0-----0-----0-----0-----0-----0-----0-
G|-------------0-----------------------0-----------
D|-------0-----------0-----------0-----------0-----
A|-------------------------------------------------
D|-5-----------------------5-----------------------




D|---0-----0-----0-----0-----0-----0-----0-----0---
A|-----0-----0-----0-----0-----0-----0-----0-----0-
G|-------------0-----------------------0-----------
D|-------0-----------0-----------0-----------0-----
A|-------------------------------------------------
D|-7-----------------------9-----------------------




D|---0-----0-----0-----0-----0-----0-----0-----0---
A|-----0-----0-----0-----0-----0-----0-----0-----0-
G|-------------0-----------------------0-----------
D|-------0-----------0-----------0-----------0-----
A|-------------------------------------------------
D|-2-----------------------4-----------------------


Then repeat that again, and then play this.


D|---0-----0-----0-----0-----0-----0-----0-----0-----0-----0-----0-----0-----0-----0-----0-----0---
A|-----0-----0-----0-----0-----0-----0-----0-----0-----0-----0-----0-----0-----0-----0-----0-----0-
G|-------------0-----------------------0-----------------------0-----------------------0-----------
D|-------0-----------0-----------0-----------0-----------0-----------0-----------2-----------2-----
A|-------------------------------------------------------------------------0-----------------------
D|-5-----------------------5-----------------------4-----------------------------------------------

D|---0-----0-----0-----0-----0-----0-----0-----0---
A|-----5-----5-----5-----5-----5-----5-----5-----5-
G|-------------------0-----------------------0----- x2
D|-------------4-----------4-----------4-----------
A|-------0-----------------------0-----------------
D|-0---------------------------------------------------(--0--) Only at the end of the song)

Then that's it for the whole song. Once you've learnt them patterns, just listen to the song and play along.

"Sometimes I pick it up and play. Loosen and stretch it's ancient strings, until it sounds the way I feel."

Offline

#2 07-15-2010 6:11pm

yoshimi
Member
Registered: 07-25-2008
Posts: 33

Re: I'll Be There - Tab

This is great, can't wait to get home and try it.

Thanks so much for your tabbing (and future tabbing from the look of the Bay of Skulls thread!), I can just about keep up with most of these tabs eventually but wouldn't be able to work them out in a million years. Brings me many happy hours.

Offline

Board footer

Powered by FluxBB