Sad Reminders

An Unofficial Mark Kozelek Site

You are not logged in.

Announcement

This forum is now READ ONLY. The new forum is here. Read why we have a new forum here.

#1 08-25-2010 3:05pm

MathEquation
Member
From: England
Registered: 03-02-2010
Posts: 60

Carry Me Ohio Tab

As requested by BadSeed, here is the tab for Carry Me Ohio from Lost Verses Live.

Sun Kil Moon - Carry Me Ohio (Live Version From Lost Verses)

DADGAD (Capo 4th Fret)

Intro/Verse:

On the slide hit the first note lightly so it doesn't really pick up where you're sliding from because you just hear that he slides to the 5 note when he plays it, he mutes the first note out.

D|---------------0--------------------
A|-------0---------------0-----0---0--
G|-----0-------0-------0-------0---0--
D|---4-------0-------0---------0---0--
A|------------------------------------
D|-2-------4-------5-------4s5---4----


Play the above for all verses and for the intro and gap fillers he adds these two patterns.

D|-------0---------------------------
A|---------------0-------0-----0---0-
G|-----0-------0-------0-------0---0-
D|---4-------0-------0---------0---0-
A|-----------------------------------
D|-2-------4-------5-------4s5---4---


D|-----------------------0-----------
A|-------0---------------------0---0-
G|-----0-------0-------0-------0---0-
D|---4-------0-----------------0---0-
A|---------------0h2-----------------
D|-2-------4---------5-----4s5---4---


D|-------0---------------0------------
A|---------------0-------------0---0--
G|-----0-------0-------0-------0---0--
D|---4-------0-------0---------0---0--
A|------------------------------------
D|-2-------4-------5-------4s5---4----


Chrous:

D|---------------0-------------0----------------------------------
A|-------0-------------0---------0--------0-------0-----0-------0-
G|-----0-------0---------0--------------0-------0-------------0---
D|---0-------0-------0-------0--------0-------0-------0-----0-----
A|----------------------------------------------------------------
D|-5-------7-------9-------9-------10-------9-------5-----4-------

And that's it for the whole song.

"Sometimes I pick it up and play. Loosen and stretch it's ancient strings, until it sounds the way I feel."

Offline

#2 08-26-2010 10:24am

BadSeed
Member
From: Scotland
Registered: 03-18-2007
Posts: 338

Re: Carry Me Ohio Tab

Excellent, thanks! You're too good

Offline

Board footer

Powered by FluxBB