Sad Reminders

An Unofficial Mark Kozelek Site

You are not logged in.

Announcement

This forum is now READ ONLY. The new forum is here. Read why we have a new forum here.

#1 09-15-2010 4:58am

Pierre21
Member
Registered: 01-10-2005
Posts: 664
Website

Half Moon Bay

There you go, might be typos though. I made it quite fast...

Half Moon Bay
By : Sun Kil Moon
On : Admiral Fell Promises

Tuning : 

C#G#C#F#BD#

NOTATION : 

a= 10, b = 11, c = 12...

p = pull-off

X = 12th fret harmonic. Play it with your right hand !!

Sometimes I had to leave little gaps in the bars to write all the notes (sometimes you have to cram 5 notes in one beat for example).

And MOST IMPORTANTLY * means the notes under must not be played as a cluster (as indicated)
but with a "flourish" : one finger after another in a fast motion. For example the second time I used it, you
must quickly pick the notes one after another in a "rolling" movement "thumb-index-middlefinger-ring finger" all in one beat.


Intro : 

              X2
----c----------0
------c------0--
----a------0--0-
--0---a-----a---
----------0-----
0---------------

Part 1 : 

Note in parentheses is sometimes played instead of the one under it, on all thoses chords.

----0-(0)---0--- ----0-------0--- ----0-------0--- ----0-------0---
----0--0----0--0 ----0--0----0--0 ----0--0----0--0 ----0--0----0--0
------0-------0- ------0-------0- ------0-------0- ------0-------0-
----0-------0--- ----0-------0--- ----3-------2--- ----2-------3---
--8-------7----- --5-------5----- --3-------3----- --3-------3-----
8-------7------- 5-------5------- 3-------2------- 2-------3-------


-------0 ----c----------0
----0--- ------c------0--
------0- ----a------0--0- Back to start of part 1
----0--- --0---a-----a---
--0----- ----------0-----
5------- 0---------------


Part 2 :

______________X2 ______________X2 ______________X2
-----3---------0 ----a\5--------- ----3-----------
-------4-----0-- ----9\4--------- ----2-----------
-----4-----0--0- ----7\2--------- ----0-----------
--0----3----3--- --0---------X--- --0---------X---
----------0----- ---------------- ------1---------
0--------------- 8-----3--------- 1---------------

______________X4
     p   *
----10----------
----0----0----(0)
----20---0-----0 Back to start of part 2
--0-----0-----0-
------------0---
0-----3---5-----


Part 3 :

         *
----5----0------
----4----0------
----5----0------ Again and again. Then back to start of part 1.
--------0-----0-
--0---------8---
0-----5---7-----


Outro : 


RUBATO____________________________
              p h
a----------- ----3------- -1-0-------- ------------ ------6666-5- 
9----------- ------------ --------9\-- 5-------9\-- 5------- ----
7----------- 2023-------- 2-0--------- ------------ -----7-- ----
--8--------- ------------ ------------ ------------ -------- ----  
0----------- ------------ ------------ 0----------- 0------- ---- 
------------ ------------ --------8--- ----0---8--- ----0--- ----


5-----6666-5- 5-----dddd-c- c-------5-3- 3-------1-0- 
-------- ---- -------- ---- ----0------- ------------ 
--7--7-- ---- --7----- ---- ------0----- ----0------- 
0------- ---- 0------- 0--- ------------ ------0----- 
-------- ---- -------- ---- ------------ 1----------- 
----0--- ---- ----0--- ---- a----------- ------------ 

                           __________________________
0----------- --------0---- ----0---0---- ----0---0---
------------ -------0 ---- ----0--0 ---- ----0--0 ---
----2---2-0- 2-----2- ---- ------2- ---- ------0- ---
------------ ----0--- ---- ----0--- ---- ----0--- ---
0----------- -------- ---- --0----- ---- --0----- 1-0 
------------ -------- 3-2- 0------- 3-2- 0------- ---

____________________________________________________
--------0---- ------------ ------------ ------------ 
-------0 --- ------------ ------------ a---9---9--- 
------2- ---- ------------ 7---9---a--- --7---7---7- 
--0----- ---- --0-------0- --0---0---0- ------------ 
0------- 1-0- 0-----0----- ------------ ------------ 
----0--- ---- ----0---0--- 8---8---8--- 0---0---0--- 

___________________________________________________
------------ ------------ ------------ 1---0---0--- 
------------ a---9---9--- 9---7---0--- ------------ 
--7---7---7- --7---7---7- --0---0---0- --2---2---2- 
a---a---a--- ------------ ------------ ------------ 
------------ ------------ ------------ 0---0---0--- 
8---8---8--- 0---0---0--- 8---8---8--- ------------ 

__________X2 __________X4              __________X3
0-----0----- dca--------- ------------ ------------ 
--0---0----- ---ca9------ 542--------- 754--------- 
----0------- ------------ ---532------ ---753------ 
------------ ---------0-- ------------ ------------ 
0----------- ------------ ---------0-- ---------0-- 
--------3-2- ------0----- ------0----- ------0----- 

              hh hh hh hh  hh hh hh hh
------------ --0--0--0--0 --0--0--0--0 ------------ 
754--------- -0--0--0--0- -0--0--0--0- ------------ 
---753------ ------79a--- ------79a--- ------------ 
------------ ---78a---78a ---78a---78a 0----------- 
------------ 78a--------- 78a--------- ------------ 
------------ ------------ ------------ ------------ 

Can you play that last part ? I slowed it down to get it right, but at normal speed I can't !

ENJOY !

Last edited by Pierre21 (09-22-2010 3:16am)

Offline

#2 09-15-2010 10:06am

jwv
Member
Registered: 08-07-2010
Posts: 25

Re: Half Moon Bay

Its so good to play that tab. I desperately want to be able to play the whole lot though, with outro too. Pretty please pierre?!

Offline

#3 09-19-2010 11:35am

jwv
Member
Registered: 08-07-2010
Posts: 25

Re: Half Moon Bay

someone please tab the ending! i have most of it down but im becoming increasingly annoyed at myself for not being able to figure out a few parts! math equation maybe? ha. anyone tabbed any of church of the pines or sam wong hotel? im pretty close with church of the pines but same applies as above! niggling parts sending me round the twist!

Offline

#4 09-19-2010 2:18pm

Pierre21
Member
Registered: 01-10-2005
Posts: 664
Website

Re: Half Moon Bay

I'm on holiday right now so not really up for some tabbing... All those little numbers drive me insane. But I'll give the rest a go sometimes sooner or later. Sorry for the lack of a precise date.

Offline

#5 09-20-2010 11:18am

jwv
Member
Registered: 08-07-2010
Posts: 25

Re: Half Moon Bay

ha no worries pierre! nice one

Offline

#6 09-22-2010 3:17am

Pierre21
Member
Registered: 01-10-2005
Posts: 664
Website

Re: Half Moon Bay

Here you go, I added the outro. Enjoy !!

Offline

#7 09-22-2010 9:59am

jwv
Member
Registered: 08-07-2010
Posts: 25

Re: Half Moon Bay

my problem is i go for the easy option every time, and although the note may be correct, its played on the wrong string or fret, if you see what i mean? so im already in the wrong place to begin with. What software do you use to slow the song down pierre? i noticed you mentioned slowing down the recording on another post. Cheers for the tab though, it all comes together nicely now! and for the record no, i can only play the ending slowly too! playing those 2 open strings at the same time is very diffcult to get the pattern right.

Offline

Board footer

Powered by FluxBB