Sad Reminders

An Unofficial Mark Kozelek Site

You are not logged in.

Announcement

This forum is now READ ONLY. The new forum is here. Read why we have a new forum here.

#1 10-11-2010 3:05pm

Pierre21
Member
Registered: 01-10-2005
Posts: 664
Website

Australian Winter

As usual there might be typos, but here it is :

Australian Winter
By : Sun Kil Moon
On : Admiral Fell Promises


Tuning : CGCFGC


Notations : 

a = 10, b = 11, c = 12...


h = Hammer-on

P = Pull-off


MOST IMPORTANTLY: When two notes are placed under a * it means they must not be played as a cluster (as written)
but one after the other in a fast picking motion, like a little "flourish". The reason it's written thus
is because of the lack of space to actually write the notes as they're played
(it's a triple-time rythm crammed within a binary piece of music if you will...)


INTRO : 



_______________________________X2
   hh               hh
--------7------- ---------------- 
------a----a---- ---------------- 
--79a-------9-7- --79a-9-7-5-2--- 
0--------------- 0--------------- 
---------------- ---------------- 
---------------- ---------------- 

                                     *
---c-/e-f-e-c--- --888-7---0---0- ---3--2---------
---------------- --------8---7--- ---0------3-----
--a-a/c-e-c-a--- -7-------------- --2-2---------0-
0--------------- 0-------7---5--- 0-------2-------
---------------- ---------------- ------------0---
---------------- ---------------- ----------------

Verse : 


______________X2
---3--2---------
---0------3-----
----2---------0-
--0-----2-------
------------0---
0---------------


   *            *
---0-------- ---0-------- 
---0-------- ---0-------- 
------------ ------------ 
----0-----0- ----0-----0- 
--3-----0--- --3-----0--- 
3-----5----- 3-----2-----




Instrumental #1 : 

   *
---c--a-------0- --------------0- ------------
---0----c---0--- --888/a-7---0--- ------------
----a----------- ---------------- --777-7-7-7\
--0-------a----- 7---------5----- ------------
---------------- ---------------- 8-----------
0--------------- ---------------- ------------




Instrumental #2 : 

   *
---c-/e-f-e-c--- --888-7---0---0- ------------
---0------------ --------8---7--- ------------
----a/c-e-c-a--- -7-------------- --777\5-3-2-
--0------------- 0-------7---5--- ------------
---------------- ---------------- 8-----------
0--------------- ---------------- ------------


---------------- 3-5-7-8---7/c--- --e-------------
---------------- ---------------a ----c-----------
-2---3-5-7------ 2-3-5-7--------- a---------------
---------------- 0--------------- -------a----0---
---------------- ---------------- ----------------
3---5-7-8------- ---------------- ----------------


_______________________________X2
 hpp     hpp      hp
---0---0---0---0 ---0---0---0---0 
-0---0---0---0-- -0---0---0---0-- 
2320------------ ---------------- 
----3---2320---- ---------------- 
------------3--- 020---------0--- 
---------------- ----3---0------- 


---7---7---7---7 ---7---7---7---7 
-7---7---7---7-- -7---7---7---7--
---------------- --------7---9--- 
---------------- 7---8----------- 
--------7---8--- ---------------- 
7---8----------- ----------------


---0---0---0---0 ---0---0---0 ---0---0---0 ---0---0---0
-0---0---0---0-- -0---0---0-- -0---0---0-- -0---0---0--
a-------f---e--- ----3---2--- ----f---e--- ----3---2---
----0----------- 0----------- 0----------- 0----------- 
---------------- ------------ ------------ ------------ 
---------------- ------------ ------------ ------------


---5---5---5 ---3---3---3 ---2---2---2 ---0---0---0 
-1---1---1-- -1---1---1-- -1---1---1-- --1---1---1- 
0---0---0--- 0---0---0--- 0---0---0--- 02--02--02-- 
------------ ------------ ------------ ------------ 
------------ ------------ ------------ ------------ 
------------ ------------ ------------ ------------ 


---0---0---0 ---0---0---0 ---0---f---e ---0---5---3
-0---0---0-- -0---0---0-- -0---0---0-- -0---0---0-- 
----f---e--- ----3---2--- ----e---c--- ----3---2---
0----------- 0----------- 0----------- 0----------- 
------------ ------------ ------------ ------------ 
------------ ------------ ------------ ------------ 


Rubato
5----------- a--------------c-------- ----------------
0----------- 0-------aaaa/c-0--cccc-a ----c\----------
3----------- 8--------------a-------- -9a------67--9--
0----------- 0--------------0-------- ----------------
x----------- x--------------x-------- ----------------
5----------- a--------------c-------- 8-------5---7--- 


            *
------0- ---3--2---------
--5----- ---0------3-----
-3--6--- --2-2---------0-
-------- 0-------2-------
-------- ------------0---
2---7--- ----------------


And back to verse ! 


Outro : 


   *                                           Rubato
---c--a-------0- --------------0- ------------ /c-----e-------------
---0----c---0--- --888/a-7---0--- ------------ ----a----c-----------
----a----------- ---------------- --777-7-7-7- -----a---------------
--0-------a----- 7---------5----- ------------ ------------a--------
---------------- ---------------- 8----------- ---------------------
0--------------- ---------------- ------------ ---------------------



ENJOY!

Last edited by Pierre21 (10-11-2010 3:06pm)

Offline

#2 10-12-2010 4:19am

jwv
Member
Registered: 08-07-2010
Posts: 25

Re: Australian Winter

yeah man keep them coming! this one will take some mastering!

Offline

#3 10-12-2010 5:13am

jwv
Member
Registered: 08-07-2010
Posts: 25

Re: Australian Winter

its less daunting than it look/sounds! really enjoy playing it thanks pierre

Offline

#4 10-12-2010 5:20am

Pierre21
Member
Registered: 01-10-2005
Posts: 664
Website

Re: Australian Winter

It's not so hard to play indeed, you have to practice it a few times though to get the right flow. I love this one.

Offline

Board footer

Powered by FluxBB