Sad Reminders

An Unofficial Mark Kozelek Site

You are not logged in.

Announcement

This forum is now READ ONLY. The new forum is here. Read why we have a new forum here.

#1 12-25-2010 4:12am

yoshimi
Member
Registered: 07-25-2008
Posts: 33

natural light?

I realise this song is probably too simple to even bother with for you guitar pro's on this forum, but would anybody mind tabbing this one for my benefit?

Offline

#2 12-25-2010 2:42pm

MathEquation
Member
From: England
Registered: 03-02-2010
Posts: 60

Re: natural light?

There you go, I've quickly tabbed it out for you. It's a nice and easy one to play along to for such a great song. You'll need to tune your guitar down first before you drop down to D.

Sun Kil Moon - Natural Light

DADGBE

Capo 1st Fret

Verse:

E|---------------------------------
B|---------------------------------
G|---------------------------------
D|-----0-----0---0-----0-----0---0-
A|---0-----0---------5-----5-------
D|-0-----0-----0---5-----5-----5---

The "Teaching Spanish at high school" part.

E|-----------------------------------------------------
B|-----------------------------------------------------
G|-----------------------------------------------------
D|-----0-----0---0-----0-----0---0-----0-----0---0-
A|---0-----0----------7-----7---------7-----7--------
D|-0-----0-----0---7-----7-----7---7-----7-----7---

Chorus:

"I found a picture from before the fight."

E|----------------------------------------------------------------------
B|----------------------------------------------------------------------
G|----------------------------------------------------------------------
D|-----0-----0---0-----0-----0---0-----0-----0---0-----0-----0---0-
A|---0-----0---------5-----5---------9-----9----------7-----7--------
D|-0-----0-----0---5-----5-----5---9-----9-----9---7-----7-----7---

E|-------------------------------------
B|-------------------------------------
G|-------------------------------------
D|-----0-----0---0------0-----0---0-
A|---9-----9----------7-----7--------
D|-9-----9-----9---7-----7-----7---

End note:

E|---
B|---
G|---
D|-0-
A|-0-
D|-0-

Last edited by MathEquation (12-25-2010 3:19pm)


"Sometimes I pick it up and play. Loosen and stretch it's ancient strings, until it sounds the way I feel."

Offline

#3 12-25-2010 7:31pm

yoshimi
Member
Registered: 07-25-2008
Posts: 33

Re: natural light?

This is awesome, thanks!!!

Offline

Board footer

Powered by FluxBB