Sad Reminders

An Unofficial Mark Kozelek Site

You are not logged in.

Announcement

This forum is now READ ONLY. The new forum is here. Read why we have a new forum here.

#1 09-08-2012 1:27pm

canon_in_w
Member
Registered: 06-02-2010
Posts: 20

A Start on Elaine

Ok, so here's what I have so far: the first portion of the main part (up until "high on crack cocaine") and the bass of the bridge part, even though I think he plays it in a different key.

first half of main part

Db----------0-|--------0-|-------0-|-------0-|
Ab--------0---|------0---|-----0---|-----0---|
Gb-----11-----|----9-----|---7-----|---6-----|
Db--12--------|-11-------|-9-------|-7-------|
Ab------------|----------|---------|---------|
Db------------|----------|---------|---------|


Db--------0-|-------0-|-------0-|-------0-|
Ab------0---|-----0---|-----0---|-----0---|
Gb----4-----|---2-----|---0-----|---2-----|
Db--5-------|-4-------|-2-------|-0-------|
Ab----------|---------|---------|---------|
Db----------|---------|---------|---------|


bridge (basically, but not in this key, I don't think)

Db-----------------|
Ab-----------------|
Gb-----------------|
Db-----------------|
Ab--/5--5--5-------|
Db------------3--0-|

And that's all I've got.  I'm pretty sure it's decent. ...Help!

Offline

#2 09-09-2012 4:55pm

ultralex
Member
Registered: 01-26-2012
Posts: 5

Re: A Start on Elaine

Here is everything but the little interludes.  The recorded version is a whole step down (6th string tuned to B) of how yours is written

B--------0-------0-------0-------0-------0-------0-------0-------0--
F#-----0-------0-------0-------0-------0-------0-------0-------0----
E----11------9-------7-------6-------4-------2-------0-------2------
B--12------11------9-------7-------5-------4-------2-------0--------
F#------------------------------------------------------------------
B-------------------------------------------------------------------


-------0-----------------------0-
---------------0-------0---------
-----0-------0---------------0---
---4-------2---------0-----4-----
-2-------0---------5-------------
-----------------5-------0-------

last time:
-------0-------------------------
---------------0-------0---------
-----0-------0-------------------
---4-------2---------0-----------
-2-------0---------5-------------
-----------------5-------0-------


SECOND PART

---------0---------------0-------
-------------0-------0-----------
-----------0---------------------
-------0---0-------0-------------
---3h5---------------------------
---------------5-------3---------


---------0---------------0-------
-------------0-------0-----------
-----------0---------------------
-------0---0-------0-------------
--8h10---------------------------
---------------10------8---------

last time:
---------0---------------0-------
-------------0-------0-----------
-----------0---------------------
-------0---0-------0-------------
---3h5---------------------------
---------------5-------3----0----

Offline

#3 09-11-2012 4:47pm

canon_in_w
Member
Registered: 06-02-2010
Posts: 20

Re: A Start on Elaine

Wow, thanks.  Yeah, I did mine from memory, so the key was off.  That looks excellent.  Kudos.

Offline

Board footer

Powered by FluxBB