Sad Reminders

An Unofficial Mark Kozelek Site

You are not logged in.

Announcement

This forum is now READ ONLY. The new forum is here. Read why we have a new forum here.

#1 02-22-2009 5:38am

Fabrice
Member
Registered: 02-21-2009
Posts: 9

The Light (alt.version)

Love this song! Easy to play, and sounds great.

Gtr I (C# G# C# F G# C#) - 'Acoustic'


  Gtr I
|-0-------------0-|---------------0-|---------------0-|---------------0-|
|-------0---------|-------0---------|-------0---------|-------0---------|
|---0-------0-----|---0-------0-----|---0-------0-----|---0-------0-----|
|-----0-------0---|-----0-------0---|-----0-------0---|-----0-------0---|
|-----------------|-----------------|-----------------|-----------------|
|-9-------9-------|-7-------7-------|-5-------5-------|-0-------0-------|


|---------------0-|---------------0-|---------------0-|---------------0-|
|-------0---------|-------0---------|-------0---------|-------0---------|
|---0-------0-----|---0-------0-----|---0-------0-----|---0-------0-----|
|-----0-------0---|-----0-------0---|-----0-------0---|-----0-------0---|
|-----------------|-----------------|-----------------|-----------------|
|-5-------5-------|-0-------0-------|-5-------5-------|-0-------0-------|


|---------------0-|---------------0-|---------------0-|---------------0-|
|-------0---------|-------0---------|-------0---------|-------0---------|
|---0-------0-----|---0-------0-----|---0-------0-----|---0-------0-----|
|-----0-------0---|-----0-------0---|-----0-------0---|-----0-------0---|
|-3-------3-------|-5-------5-------|-2-------2-------|-----------------|
|-----------------|-----------------|-----------------|-5-------5-------|


|---------------0-|---------------0-|---------------0-|---------------0-|
|-------0---------|-------0---------|-------0---------|-------0---------|
|---0-------0-----|---0-------0-----|---0-------0-----|---0-------0-----|
|-----0-------0---|-----0-------0---|-----0-------0---|-----0-------0---|
|-----------------|-----------------|-----------------|-----------------|
|-0-------0-------|-5-------5-------|-0-------0-------|-5-------5-------|


|---------------0-|---------------0-|---------------0-|---------------0-|
|-------0---------|-------0---------|-------0---------|-------0---------|
|---0-------0-----|---0-------0-----|---0-------0-----|---0-------0-----|
|-----0-------0---|-----0-------0---|-----0-------0---|-----0-------0---|
|-4-------4-------|-4-------4-------|-2-------2-------|-----------------|
|-----------------|-----------------|-----------------|-5-------5-------|

Offline

#2 02-22-2009 9:12am

nickgarv7
Member
From: Indianapolis
Registered: 01-18-2006
Posts: 142

Re: The Light (alt.version)

hey fabrice...great on posting the tabs!  you play the song basically like i do (makes me feel better about my own tab)

the only thing i would add ...when you listen to the song, at 1:27 (and each time after) he does the bass riff where he walks down...the mid and treble notes stay the same but he just adds that turnaround thing on the 6th string.  good work!




--------------------------------------------------------------------------------------
--------------------------------------------------------------------------------------
--------------------------------------------------------------------------------------
--------------------------------------------------------------------------------------
--------------------------------------------------------------------------------------
--5------4-------2----------4------------5-----------0-----------------------------

             "somehow we are.... not one......(back into familiar riff)

lemme know if i need to tab this better....i just put the basic change.


"...and the angels who looked upon, they never came down."

Offline

#3 02-22-2009 12:00pm

Fabrice
Member
Registered: 02-21-2009
Posts: 9

Re: The Light (alt.version)

Good catch! I guess I forgot to tab this part of the song ... wink

Here you go:

Gtr I (C# G# C# F G# C#) - 'Acoustic'


  Gtr I
|-0-------------0-|---------------0-|---------------0-|---------------0-|
|-------0---------|-------0---------|-------0---------|-------0---------|
|---0-------0-----|---0-------0-----|---0-------0-----|---0-------0-----|
|-----0-------0---|-----0-------0---|-----0-------0---|-----0-------0---|
|-----------------|-----------------|-----------------|-----------------|
|-9-------9-------|-7-------7-------|-5-------5-------|-0-------0-------|


|---------------0-|---------------0-|---------------0-|---------------0-|
|-------0---------|-------0---------|-------0---------|-------0---------|
|---0-------0-----|---0-------0-----|---0-------0-----|---0-------0-----|
|-----0-------0---|-----0-------0---|-----0-------0---|-----0-------0---|
|-----------------|-----------------|-----------------|-----------------|
|-5-------5-------|-0-------0-------|-5-------5-------|-0-------0-------|


|---------------0-|---------------0-|---------------0-|---------------0-|
|-------0---------|-------0---------|-------0---------|-------0---------|
|---0-------0-----|---0-------0-----|---0-------0-----|---0-------0-----|
|-----0-------0---|-----0-------0---|-----0-------0---|-----0-------0---|
|-3-------3-------|-5-------5-------|-2-------2-------|-----------------|
|-----------------|-----------------|-----------------|-5-------5-------|


|---------------0-|---------------0-|---------------0-|-----------------|
|-------0---------|-------0---------|-------0---------|-------0-------0-|
|---0-------0-----|---0-------0-----|---0-------0-----|---0-------0-----|
|-----0-------0---|-----0-------0---|-----0-------0---|-----0-------0---|
|-----------------|-----------------|-----------------|-----------------|
|-0-------0-------|-5-------5-------|-0-------0-------|-5-------4-------|


|---------------0-|---------------0-|---------------0-|---------------0-|
|-------0---------|-------0---------|-------0---------|-------0---------|
|---0-------0-----|---0-------0-----|---0-------0-----|---0-------0-----|
|-----0-------0---|-----0-------0---|-----0-------0---|-----0-------0---|
|-----------------|-----------------|-----------------|-----------------|
|-2-------2-------|-4-------4-------|-5-------5-------|-0-------0-------|


|---------------0-|---------------0-|---------------0-|---------------0-|
|-------0---------|-------0---------|-------0---------|-------0---------|
|---0-------0-----|---0-------0-----|---0-------0-----|---0-------0-----|
|-----0-------0---|-----0-------0---|-----0-------0---|-----0-------0---|
|-4-------4-------|-4-------4-------|-2-------2-------|-----------------|
|-----------------|-----------------|-----------------|-5-------5-------|

By the way, how can I make these tabs look better when copied in the forum? The format looks good in Power Tab, but the copy / paste to the forum makes the whole thing messed up ..!

Offline

#4 02-24-2009 11:58pm

lament
Site Owner
From: Bay Area
Registered: 09-24-2003
Posts: 1,699
Website

Re: The Light (alt.version)

if you guys want better looking tabs, wrap your post in [ code ] tags (without the spaces), like so:

|-0-------------0-|---------------0-|---------------0-|---------------0-|
|-------0---------|-------0---------|-------0---------|-------0---------|
|---0-------0-----|---0-------0-----|---0-------0-----|---0-------0-----|
|-----0-------0---|-----0-------0---|-----0-------0---|-----0-------0---|
|-----------------|-----------------|-----------------|-----------------|
|-9-------9-------|-7-------7-------|-5-------5-------|-0-------0-------|

|---------------0-|---------------0-|---------------0-|---------------0-|
|-------0---------|-------0---------|-------0---------|-------0---------|
|---0-------0-----|---0-------0-----|---0-------0-----|---0-------0-----|
|-----0-------0---|-----0-------0---|-----0-------0---|-----0-------0---|
|-----------------|-----------------|-----------------|-----------------|
|-5-------5-------|-0-------0-------|-5-------5-------|-0-------0-------|

|---------------0-|---------------0-|---------------0-|---------------0-|
|-------0---------|-------0---------|-------0---------|-------0---------|
|---0-------0-----|---0-------0-----|---0-------0-----|---0-------0-----|
|-----0-------0---|-----0-------0---|-----0-------0---|-----0-------0---|
|-3-------3-------|-5-------5-------|-2-------2-------|-----------------|
|-----------------|-----------------|-----------------|-5-------5-------|

|---------------0-|---------------0-|---------------0-|-----------------|
|-------0---------|-------0---------|-------0---------|-------0-------0-|
|---0-------0-----|---0-------0-----|---0-------0-----|---0-------0-----|
|-----0-------0---|-----0-------0---|-----0-------0---|-----0-------0---|
|-----------------|-----------------|-----------------|-----------------|
|-0-------0-------|-5-------5-------|-0-------0-------|-5-------4-------|

|---------------0-|---------------0-|---------------0-|---------------0-|
|-------0---------|-------0---------|-------0---------|-------0---------|
|---0-------0-----|---0-------0-----|---0-------0-----|---0-------0-----|
|-----0-------0---|-----0-------0---|-----0-------0---|-----0-------0---|
|-----------------|-----------------|-----------------|-----------------|
|-2-------2-------|-4-------4-------|-5-------5-------|-0-------0-------|

|---------------0-|---------------0-|---------------0-|---------------0-|
|-------0---------|-------0---------|-------0---------|-------0---------|
|---0-------0-----|---0-------0-----|---0-------0-----|---0-------0-----|
|-----0-------0---|-----0-------0---|-----0-------0---|-----0-------0---|
|-4-------4-------|-4-------4-------|-2-------2-------|-----------------|
|-----------------|-----------------|-----------------|-5-------5-------|

Offline

Board footer

Powered by FluxBB