Sad Reminders

An Unofficial Mark Kozelek Site

You are not logged in.

Announcement

This forum is now READ ONLY. The new forum is here. Read why we have a new forum here.

#1 02-27-2009 8:55pm

Fabrice
Member
Registered: 02-21-2009
Posts: 9

Salvador Sanchez (from Little Drummer Boy)

Here you go with another nice finger-picking exercise:


Gtr I (D A D G A D) - 'Acoustic' - capo 4

  Gtr I
|---------------0-|---------------4-|---------------0-|---------------0-|
|-------0---------|-------0---------|-------0---------|-------0---------|
|---0-------0-----|---0-------0-----|---0-------0-----|---0-------0-----|
|-----0-------0---|-----0-------0---|-----0-------0---|-----0-------0---|
|-----------------|-----------------|-----------------|-2-------4-------|
|-0-------0-------|-0-------0-------|-0-------0-------|-----------------|


|---------------0-|---------------0-|---------------0-|-----------------0-|
|-------0---------|-------0---------|-------0---------|--------0----------|
|---0-------0-----|---0-------0-----|---0-------0-----|----0--------0-----|
|-----0-------0---|-----0-------0---|-----0-------0---|------0--------0---|
|-----------------|-----------------|-----------------|-------------------|
|-5-------5-------|-7-------7-------|-9-------9-------|-11-------11-------|


|---------------0-|---------------4-|---------------0-|---------------0-|
|-------0---------|-------0---------|-------0---------|-------2---------|
|---0-------0-----|---0-------0-----|---0-------0-----|---0-------0-----|
|-----0-------0---|-----0-------0---|-----0-------0---|-----0-------0---|
|-----------------|-----------------|-----------------|-2-------4-------|
|-0-------0-------|-0-------0-------|-0-------0-------|-----------------|


|---------------0-|---------------0-|-----------------|---------------0-|
|-------0---------|-------0---------|-------5-------5-|-------7---------|
|---0-------0-----|---4-------4-----|---4-------4-----|---6-------6-----|
|-----0-------0---|-----0-------0---|-----0-------0---|-----0-------0---|
|-----------------|-----------------|-----------------|-----------------|
|-2-------2-------|-4-------4-------|-5-------5-------|-7-------7-------|

Offline

Board footer

Powered by FluxBB