Sad Reminders

An Unofficial Mark Kozelek Site

You are not logged in.

Announcement

This forum is now READ ONLY. The new forum is here. Read why we have a new forum here.

#1 02-21-2009 11:20am

Fabrice
Member
Registered: 02-21-2009
Posts: 9

Bubble (Culture Catch version)

Here is the tab for Bubble - as played by Mark here (http://www.youtube.com/watch?v=3zWiweai … re=related):

I am new to this forum ... Is there a way to upload .ptb files (Power Tab)?
Enjoy!

BUBBLE
Gtr I (C G C E G C) - 'Acoustic'

  Q=180
  Gtr I
|---------------4---------------0-|---------------4-|---------------0--|
|-------5---------------5---------|-------5---------|-------5----------|
|---0-------0-------0-------0-----|---0-------0-----|---0-------0------|
|-----0-------0-------0-------0---|-----0-------0---|-----0-------0----|
|---------------------------------|-----------------|------------------|
|-0-------0-------0-------0-------|-0-------0-------|-0-------0--------|


|---------------4-|---------------0-|---------------4-|---------------0-|
|-------5---------|-------5---------|-------5---------|-------5---------|
|---0-------0-----|---0-------0-----|---0-------0-----|---0-------0-----|
|-----0-------0---|-----0-------0---|-----0-------0---|-----0-------0---|
|-----------------|-----------------|-----------------|-----------------|
|-0-------0-------|-0-------0-------|-0-------0-------|-0-------0-------|


|---------------4-|---------------0-|---------------4-|---------------0-|
|-------5---------|-------5---------|-------5---------|-------5---------|
|---0-------0-----|---0-------0-----|---0-------0-----|---0-------0-----|
|-----0-------0---|-----0-------0---|-----0-------0---|-----0-------0---|
|-----------------|-----------------|-----------------|-----------------|
|-0-------0-------|-0-------0-------|-0-------0-------|-0-------0-------|


|---------------0-|---------------0-|---------------0-|---------------0-|
|-------4---------|-------4---------|-------4---------|-------4---------|
|---0-------0-----|---0-------0-----|---0-------0-----|---0-------0-----|
|-----2-------2---|-----2-------2---|-----2-------2---|-----2-------2---|
|-0-------0-------|-0-------0-------|-0-------0-------|-0-------0-------|
|-----------------|-----------------|-----------------|-----------------|


|---------------4-|---------------0-|---------------4-|---------------0-|
|-------5---------|-------5---------|-------5---------|-------5---------|
|---0-------0-----|---0-------0-----|---0-------0-----|---0-------0-----|
|-----0-------0---|-----0-------0---|-----0-------0---|-----0-------0---|
|-----------------|-----------------|-----------------|-----------------|
|-0-------0-------|-0-------0-------|-0-------0-------|-0-------0-------|


|---------------0-|---------------0-|---------------0-|-----------------0-|
|-------0---------|-------0---------|-------0---------|--------0----------|
|---0-------0-----|---0-------0-----|---0-------0-----|----0--------0-----|
|-----0-------0---|-----0-------0---|-----0-------0---|------0--------0---|
|-----------------|-----------------|-----------------|-------------------|
|-5-------5-------|-7-------7-------|-9-------9-------|-11-------11-------|


|---------------0-|---------------0-|---------------0-|---------------0-|
|-------0---------|-------0---------|-------0---------|-------0---------|
|---0-------0-----|---0-------0-----|---0-------0-----|---0-------0-----|
|-----0-------0---|-----0-------0---|-----0-------0---|-----0-------0---|
|-----------------|-----------------|-----------------|-----------------|
|-5-------5-------|-5-------5-------|-5-------5-------|-5-------4-------|


|---------------0-|---------------0-|---------------0-|---------------0-|
|-------0---------|-------0---------|-------0---------|-------0---------|
|---0-------0-----|---0-------0-----|---0-------0-----|---0-------0-----|
|-----0-------0---|-----0-------0---|-----0-------0---|-----0-------0---|
|-----------------|-----------------|-----------------|-----------------|
|-2-------2-------|-4-------4-------|-5-------5-------|-7-------7-------|


|---------------4-|---------------0-|---------------4-|---------------0-|
|-------5---------|-------5---------|-------5---------|-------5---------|
|---0-------0-----|---0-------0-----|---0-------0-----|---0-------0-----|
|-----0-------0---|-----0-------0---|-----0-------0---|-----0-------0---|
|-----------------|-----------------|-----------------|-----------------|
|-0-------0-------|-0-------0-------|-0-------0-------|-0-------0-------|


|---------------4-|---------------0-|---------------4-|---------------0-|
|-------5---------|-------5---------|-------5---------|-------5---------|
|---0-------0-----|---0-------0-----|---0-------0-----|---0-------0-----|
|-----0-------0---|-----0-------0---|-----0-------0---|-----0-------0---|
|-----------------|-----------------|-----------------|-----------------|
|-0-------0-------|-0-------0-------|-0-------0-------|-0-------0-------|


|---------------4-|---------------0-|---------------4-|---------------0-|
|-------5---------|-------5---------|-------5---------|-------5---------|
|---0-------0-----|---0-------0-----|---0-------0-----|---0-------0-----|
|-----0-------0---|-----0-------0---|-----0-------0---|-----0-------0---|
|-----------------|-----------------|-----------------|-----------------|
|-0-------0-------|-0-------0-------|-0-------0-------|-0-------0-------|


|---------------4-|---------------0-|---------------4-|---------------0-|
|-------5---------|-------5---------|-------5---------|-------5---------|
|---0-------0-----|---0-------0-----|---0-------0-----|---0-------0-----|
|-----0-------0---|-----0-------0---|-----0-------0---|-----0-------0---|
|-----------------|-----------------|-----------------|-----------------|
|-0-------0-------|-0-------0-------|-0-------0-------|-0-------0-------|


|---------------0-|---------------0-|---------------0-|---------------0-|
|-------0---------|-------0---------|-------0---------|-------0---------|
|---0-------0-----|---0-------0-----|---0-------0-----|---0-------0-----|
|-----0-------0---|-----0-------0---|-----0-------0---|-----0-------0---|
|-----------------|-----------------|-----------------|-----------------|
|-4-------4-------|-4-------4-------|-5-------5-------|-5-------5-------|


|---------------0-|---------------0-|---------------0-|---------------0-|
|-------0---------|-------0---------|-------0---------|-------0---------|
|---0-------0-----|---0-------0-----|---0-------0-----|---0-------0-----|
|-----0-------0---|-----0-------0---|-----0-------0---|-----0-------0---|
|-----------------|-----------------|-----------------|-----------------|
|-9-------9-------|-7-------7-------|-5-------5-------|-5-------5-------|


|---------------0-|---------------0-|---------------0-|---------------0-|
|-------0---------|-------0---------|-------0---------|-------0---------|
|---0-------0-----|---0-------0-----|---0-------0-----|---0-------0-----|
|-----0-------0---|-----0-------0---|-----0-------0---|-----0-------0---|
|-----------------|-----------------|-----------------|-----------------|
|-4-------4-------|-4-------4-------|-5-------5-------|-5-------5-------|


|---------------0-|---------------0-|---------------4-|---------------0-|
|-------0---------|-------0---------|-------0---------|-------0---------|
|---0-------0-----|---0-------0-----|---0-------0-----|---0-------0-----|
|-----0-------0---|-----0-------0---|-----0-------0---|-----0-------0---|
|-----------------|-----------------|-----------------|-----------------|
|-9-------9-------|-7-------7-------|-0-------0-------|-0-------0-------|


|---------------0-|---------------0-|---------------0-|-----------------0-|
|-------0---------|-------0---------|-------0---------|--------0----------|
|---0-------0-----|---0-------0-----|---0-------0-----|----0--------0-----|
|-----0-------0---|-----0-------0---|-----0-------0---|------0--------0---|
|-----------------|-----------------|-----------------|-------------------|
|-5-------5-------|-7-------7-------|-9-------9-------|-11-------11-------|


|---------------0-|---------------0-|---------------0-|---------------0-|
|-------0---------|-------0---------|-------0---------|-------0---------|
|---0-------0-----|---0-------0-----|---0-------0-----|---0-------0-----|
|-----0-------0---|-----0-------0---|-----0-------0---|-----0-------0---|
|-----------------|-----------------|-----------------|-----------------|
|-5-------5-------|-5-------5-------|-5-------5-------|-5-------4-------|


|---------------0-|---------------0-|---------------0-|---------------0-|
|-------0---------|-------0---------|-------0---------|-------0---------|
|---0-------0-----|---0-------0-----|---0-------0-----|---0-------0-----|
|-----0-------0---|-----0-------0---|-----0-------0---|-----0-------0---|
|-----------------|-----------------|-----------------|-----------------|
|-2-------2-------|-4-------4-------|-5-------5-------|-7-------7-------|


|---------------4-|---------------0-|---------------4-|---------------0-|
|-------5---------|-------5---------|-------5---------|-------5---------|
|---0-------0-----|---0-------0-----|---0-------0-----|---0-------0-----|
|-----0-------0---|-----0-------0---|-----0-------0---|-----0-------0---|
|-----------------|-----------------|-----------------|-----------------|
|-0-------0-------|-0-------0-------|-0-------0-------|-0-------0-------|

Last edited by Fabrice (03-01-2009 4:53pm)

Offline

#2 04-09-2009 11:34pm

Dastagir
Member
Registered: 10-02-2008
Posts: 6

Re: Bubble (Culture Catch version)

Excellent, excellent tab, my friend....really superb work.

~Alexander~

Offline

#3 04-19-2009 8:43pm

Dastagir
Member
Registered: 10-02-2008
Posts: 6

Re: Bubble (Culture Catch version)

P.S. I posted a video of the song on my youtube if anyone wants to see how Fabrice's tab sounds. It can be found at http://www.youtube.com/watch?v=9fEZDUM7FF8

Cheers!

~Alexander~

Offline

Board footer

Powered by FluxBB