Sad Reminders

An Unofficial Mark Kozelek Site

You are not logged in.

Announcement

This forum is now READ ONLY. The new forum is here. Read why we have a new forum here.

#1 06-07-2010 10:22am

MathEquation
Member
From: England
Registered: 03-02-2010
Posts: 60

Admiral Fell Promises Tab

Hello everyone

I've just worked out the album version of Admiral Fell Promises and tabbed it out just in case anyone else is interested in learning it too. I've put a video up on my Youtube as well in case people want to check to see if it sounds right or not. If anyone is interested just let me know and I'll send you the tab.

http://www.youtube.com/watch?v=oHZeiJitAqs


"Sometimes I pick it up and play. Loosen and stretch it's ancient strings, until it sounds the way I feel."

Offline

#2 06-07-2010 11:27am

mogambo
Member
From: Mumbai, India
Registered: 02-16-2010
Posts: 109

Re: Admiral Fell Promises Tab

Great job, mate!

Offline

#3 06-07-2010 12:11pm

MathEquation
Member
From: England
Registered: 03-02-2010
Posts: 60

Re: Admiral Fell Promises Tab

Thanks!


"Sometimes I pick it up and play. Loosen and stretch it's ancient strings, until it sounds the way I feel."

Offline

#4 06-07-2010 3:21pm

nickgarv7
Member
From: Indianapolis
Registered: 01-18-2006
Posts: 142

Re: Admiral Fell Promises Tab

great job! sounds right to me! i would love a tab if you have one...or you could just let me know the tuning (capo position)..?

either would be great..thanx!

nick


"...and the angels who looked upon, they never came down."

Offline

#5 06-07-2010 3:57pm

MathEquation
Member
From: England
Registered: 03-02-2010
Posts: 60

Re: Admiral Fell Promises Tab

Cheers mate!

Here's the tab. It was originally tabbed in Notepad so it opens up properly with that. In other things like Word, etc, it might show up a bit out of place.

Anyway, here's the tab, also for anyone else who is interested as well.

http://www.sendspace.com/file/ezhoqc


"Sometimes I pick it up and play. Loosen and stretch it's ancient strings, until it sounds the way I feel."

Offline

#6 06-07-2010 4:29pm

seepingthrough
Member
From: Sunny Glasgow, Scotland
Registered: 01-30-2009
Posts: 413

Re: Admiral Fell Promises Tab

Great job tabbing it so early, noticed you've put "marilyn sky tonight" in the lyrics...it's "maryland" bit hard to hear on the song smile

Last edited by seepingthrough (06-07-2010 5:07pm)


Red House Painters Live Shows and Videos: http://www.youtube.com/user/meolox

Offline

#7 06-07-2010 4:52pm

MathEquation
Member
From: England
Registered: 03-02-2010
Posts: 60

Re: Admiral Fell Promises Tab

Thanks! I just pasted the lyrics from the net somewhere but that's what I sang as well, I just assumed that was the lyric because it's hard to pick up but now you've mentioned it I can here it so thanks.


"Sometimes I pick it up and play. Loosen and stretch it's ancient strings, until it sounds the way I feel."

Offline

#8 06-07-2010 10:16pm

lament
Site Owner
From: Bay Area
Registered: 09-24-2003
Posts: 1,699
Website

Re: Admiral Fell Promises Tab

MathEquation wrote:

Here's the tab. It was originally tabbed in Notepad so it opens up properly with that. In other things like Word, etc, it might show up a bit out of place.

just wrap it in [ code ] tags (without the spaces):

Sun Kil Moon - Admiral Fell Promises 

DADEAD (Capo 7th Fret or 9th depending on whether you have your guitar tuned down or not)

Intro and Verse. Keep repeating this pattern.

D|-----------------0--------------------------------|--
A|-4-------4---------------0-------0-------5--------|--(5) Only last time
E|-----0-------0-------0-------0-------0-------0----|--
D|-------2-------2-------2-------2-------0-------0--|--
A|---0-----------------------0----------------------|--
D|-----------2-------2---------------4-------4------|--

Then for the bridge "You could be the answer to my every pray."


D|---------------2--
A|-------2----------
E|---4-------4------  Play once this once.
D|-----2-------2----
A|-2-------2--------
D|------------------


D|---------------0---------------------------------
A|-------4---------------0-------0-------5-------5-
E|---0-------0-------0-------0-------0-------0----- Then this.
D|-----2-------2-------2-------2-------0-------0---
A|-0-----------------------0-----------------------
D|---------2-------2---------------4-------4-------

Then repeat the above two again for the "You could be the one for who I care." Then break back into either the verse again or the chorous, depending on where you are in the song.

Then for the fast chorus part, it goes like this.

D|--------------------------------------------------------------
A|---7----7----7----7----7----7----4----4----4----2-----2----2--
E|----0----0----0----0----0----0----0----0----0----0-----0----0-
D|------------------------------------0----2----------0----2----
A|------5----7---------5----7-----------------------------------
D|-7--------------6--------------4--------------2---------------




D|-------------------------------------------------------------
A|---4----4----4----4----4----4----0----0----0----0----0----0--
E|----0----0----0----0----0----0----0----0----0----0----0----0-
D|------0----2---------0----2---------0----4---------2----2----
A|-2--------------4-----------------------------0--------------
D|-------------------------------0-----------------------------

Then at the very end of the song, end with a final open note on the top A string.

Offline

Board footer

Powered by FluxBB